0
SECTION
2
HEADER
9
$INSUNITS
70
4
9
$ACADVER
1
AC1014
9
$HANDSEED
5
FFFF
0
ENDSEC
0
SECTION
2
TABLES
0
TABLE
2
VPORT
5
8
100
AcDbSymbolTable
0
ENDTAB
0
TABLE
2
LTYPE
5
5
100
AcDbSymbolTable
0
LTYPE
5
14
100
AcDbSymbolTableRecord
100
AcDbLinetypeTableRecord
2
BYBLOCK
70
0
0
LTYPE
5
15
100
AcDbSymbolTableRecord
100
AcDbLinetypeTableRecord
2
BYLAYER
70
0
0
ENDTAB
0
TABLE
2
LAYER
5
2
100
AcDbSymbolTable
70
2
0
LAYER
5
50
100
AcDbSymbolTableRecord
100
AcDbLayerTableRecord
2
0
70
0
6
CONTINUOUS
0
ENDTAB
0
TABLE
2
STYLE
5
3
100
AcDbSymbolTable
70
1
0
STYLE
5
11
100
AcDbSymbolTableRecord
100
AcDbTextStyleTableRecord
2
STANDARD
70
0
0
ENDTAB
0
TABLE
2
VIEW
5
6
100
AcDbSymbolTable
70
0
0
ENDTAB
0
TABLE
2
UCS
5
7
100
AcDbSymbolTable
70
0
0
ENDTAB
0
TABLE
2
APPID
5
9
100
AcDbSymbolTable
70
2
0
APPID
5
12
100
AcDbSymbolTableRecord
100
AcDbRegAppTableRecord
2
ACAD
70
0
0
ENDTAB
0
TABLE
2
DIMSTYLE
5
A
100
AcDbSymbolTable
70
1
0
ENDTAB
0
TABLE
2
BLOCK_RECORD
5
1
100
AcDbSymbolTable
70
1
0
BLOCK_RECORD
5
1F
100
AcDbSymbolTableRecord
100
AcDbBlockTableRecord
2
*MODEL_SPACE
0
BLOCK_RECORD
5
1B
100
AcDbSymbolTableRecord
100
AcDbBlockTableRecord
2
*PAPER_SPACE
0
ENDTAB
0
ENDSEC
0
SECTION
2
BLOCKS
0
BLOCK
5
20
100
AcDbEntity
100
AcDbBlockBegin
2
*MODEL_SPACE
0
ENDBLK
5
21
100
AcDbEntity
100
AcDbBlockEnd
0
BLOCK
5
1C
100
AcDbEntity
100
AcDbBlockBegin
2
*PAPER_SPACE
0
ENDBLK
5
1D
100
AcDbEntity
100
AcDbBlockEnd
0
ENDSEC
0
SECTION
2
ENTITIES
0
CIRCLE
5
100
100
AcDbEntity
8
0
100
AcDbCircle
10
124.97423547806488
20
-36.214926191058829
30
0
40
2.5999999999999979
210
0
220
-0
230
1
0
LWPOLYLINE
5
101
100
AcDbEntity
8
0
100
AcDbPolyline
90
10
70
1
43
0.0
10
179.34969814375557
20
-165.59358961538439
10
164.04622958447806
20
-169.7219262248241
10
-6.815003671062315
20
-169.7219262245093
10
-13.88607148291474
20
-162.65085841263078
42
0.70291033547248216
10
-53.95248294146981
20
-110.37416984411813
10
-51.544556549640809
20
-87.085025337907155
10
-11.674234521863092
20
30.278073775097383
10
65.500000478164367
20
30.278073775097383
10
173.80195162055344
20
-67.09421008236545
10
198.01458527711151
20
-109.81012210897099
42
0.54493687266137714
0
CIRCLE
5
102
100
AcDbEntity
8
0
100
AcDbCircle
10
186.31223142777537
20
-106.98789852501054
30
0
40
2.6000000000000156
210
0
220
0
230
1
0
CIRCLE
5
103
100
AcDbEntity
8
0
100
AcDbCircle
10
-45.523874684073952
20
-101.7794857652066
30
0
40
2.5999999999999979
210
0
220
0
230
1
0
CIRCLE
5
104
100
AcDbEntity
8
0
100
AcDbCircle
10
-1.7345056347894161
20
-137.87665598465617
30
0
40
2.6000000000000001
210
0
220
0
230
1
0
CIRCLE
5
105
100
AcDbEntity
8
0
100
AcDbCircle
10
168.30532625703319
20
-160.80486523401575
30
0
40
2.6000000000000156
210
0
220
0
230
1
0
CIRCLE
5
106
100
AcDbEntity
8
0
100
AcDbCircle
10
18.500000478081667
20
-87.221926224582205
30
0
40
2.6000000000000001
210
0
220
0
230
1
0
LWPOLYLINE
5
107
100
AcDbEntity
8
0
100
AcDbPolyline
90
8
70
1
43
0.0
10
55.500000478156082
20
-71.546926224582009
10
55.50000047815081
20
19.603073775402848
42
0.41421356237292056
10
52.325000478152511
20
22.778073775402653
10
28.675000478152363
20
22.778073775415386
42
0.41421356237325502
10
25.500000478150664
20
19.603073775415361
10
25.500000478151343
20
-71.546926224582208
42
0.41421356237309254
10
28.675000478151343
20
-74.721926224582177
10
52.32500047815607
20
-74.721926224582177
42
0.41421356237311224
0
CIRCLE
5
108
100
AcDbEntity
8
0
100
AcDbCircle
10
4.2500004780816667
20
-156.22192622458221
30
0
40
2.6000000000000001
210
0
220
0
230
1
0
CIRCLE
5
109
100
AcDbEntity
8
0
100
AcDbCircle
10
62.500000478101086
20
-87.221926224605895
30
0
40
2.5999999999999979
210
0
220
0
230
1
0
LWPOLYLINE
5
110
100
AcDbEntity
8
0
100
AcDbPolyline
90
10
70
1
43
0.0
10
37.250000478087266
20
-85.721926224582177
10
13.453028902475586
20
-93.37436170811489
42
0.32575769328887066
10
11.250000478085063
20
-96.396926224580355
10
11.250000478049976
20
-156.54692622458035
42
0.41421356237326568
10
14.425000478049981
20
-159.72192622458221
10
66.575000478036401
20
-159.72192622458212
42
0.41421356237283613
10
69.750000478036398
20
-156.54692622458492
10
69.750000478089461
20
-96.396926224585002
42
0.32575769328927545
10
67.546972053698951
20
-93.37436170811489
10
43.750000478087266
20
-85.721926224582177
0
CIRCLE
5
111
100
AcDbEntity
8
0
100
AcDbCircle
10
76.750000478026749
20
-156.22192622462123
30
0
40
2.5999999999999979
210
0
220
0
230
1
0
CIRCLE
5
112
100
AcDbEntity
8
0
100
AcDbCircle
10
161.17423547804077
20
-141.47192622482382
30
0
40
2.6000000000000156
210
0
220
0
230
1
0
CIRCLE
5
113
100
AcDbEntity
8
0
100
AcDbCircle
10
-5.6742345217705816
20
-32.221926224902653
30
0
40
0.75000000000000011
210
0
220
0
230
1
0
CIRCLE
5
114
100
AcDbEntity
8
0
100
AcDbCircle
10
-5.674234521769109
20
-7.2219262249026528
30
0
40
0.75000000000000011
210
0
220
0
230
1
0
CIRCLE
5
115
100
AcDbEntity
8
0
100
AcDbCircle
10
-5.6742345217676355
20
17.778073775097347
30
0
40
0.75000000000000011
210
0
220
0
230
1
0
CIRCLE
5
116
100
AcDbEntity
8
0
100
AcDbCircle
10
86.674235478064872
20
-57.221926190523561
30
0
40
0.74999999999999289
210
0
220
0
230
1
0
CIRCLE
5
117
100
AcDbEntity
8
0
100
AcDbCircle
10
-5.6742345217750003
20
-107.22192622490266
30
0
40
0.75000000000000011
210
0
220
0
230
1
0
CIRCLE
5
118
100
AcDbEntity
8
0
100
AcDbCircle
10
-5.6742345217735268
20
-82.22192622490266
30
0
40
0.75000000000000011
210
0
220
0
230
1
0
CIRCLE
5
119
100
AcDbEntity
8
0
100
AcDbCircle
10
86.674235478064872
20
-32.221926190523561
30
0
40
0.74999999999999289
210
0
220
0
230
1
0
CIRCLE
5
120
100
AcDbEntity
8
0
100
AcDbCircle
10
86.674235478064872
20
-107.22192619052356
30
0
40
0.74999999999999289
210
0
220
0
230
1
0
CIRCLE
5
121
100
AcDbEntity
8
0
100
AcDbCircle
10
86.674235478064872
20
-7.2219261905235577
30
0
40
0.74999999999999289
210
0
220
0
230
1
0
CIRCLE
5
122
100
AcDbEntity
8
0
100
AcDbCircle
10
86.674235478064872
20
-132.22192619052356
30
0
40
0.74999999999999289
210
0
220
0
230
1
0
LWPOLYLINE
5
123
100
AcDbEntity
8
0
100
AcDbPolyline
90
14
70
1
43
0.0
10
112.92423547805234
20
-135.7219262247261
10
112.92423547800948
20
-156.93976669211244
42
0.37881426176110733
10
115.71172879595601
20
-160.09103049754111
42
0.061253639425352266
10
152.63674216005001
20
-160.09103049761617
42
0.3788142617611221
10
155.42423547800936
20
-156.9397666921987
10
155.42423547805168
20
-135.72192622481205
10
159.999235478023
20
-135.72192622482129
42
0.41421356237342771
10
163.17423547802943
20
-132.54692622482412
10
163.17423547807539
20
-80.89692622480959
42
0.4142135623729607
10
159.9992354780797
20
-77.721926224806737
10
108.34923547813132
20
-77.721926224737118
42
0.41421356237322937
10
105.17423547812704
20
-80.896926224734287
10
105.17423547808104
20
-132.54692622471401
42
0.41421356237276236
10
108.34923547807462
20
-135.72192622471681
0
CIRCLE
5
124
100
AcDbEntity
8
0
100
AcDbCircle
10
86.674235478064872
20
-82.221926190523561
30
0
40
0.74999999999999289
210
0
220
0
230
1
0
CIRCLE
5
125
100
AcDbEntity
8
0
100
AcDbCircle
10
107.17423547804081
20
-141.47192622471445
30
0
40
2.5999999999999979
210
0
220
0
230
1
0
CIRCLE
5
126
100
AcDbEntity
8
0
100
AcDbCircle
10
-5.6742345217720551
20
-57.221926224902653
30
0
40
0.75000000000000011
210
0
220
0
230
1
0
CIRCLE
5
127
100
AcDbEntity
8
0
100
AcDbCircle
10
134.17423547804083
20
-72.221926224714451
30
0
40
2.5999999999999979
210
0
220
0
230
1
0
CIRCLE
5
128
100
AcDbEntity
8
0
100
AcDbCircle
10
-28.845684827157221
20
-46.290197616402331
30
0
40
3.5000000000000009
210
0
220
0
230
1
0
CIRCLE
5
129
100
AcDbEntity
8
0
100
AcDbCircle
10
13.555653424716745
20
3.3828109596927289
30
0
40
3.5000000000000009
210
0
220
0
230
1
0
ENDSEC
0
SECTION
2
OBJECTS
0
DICTIONARY
5
C
100
AcDbDictionary
3
ACAD_GROUP
350
D
3
ACAD_MLINESTYLE
350
17
0
DICTIONARY
5
D
100
AcDbDictionary
0
DICTIONARY
5
1A
330
C
100
AcDbDictionary
0
DICTIONARY
5
17
100
AcDbDictionary
0
ENDSEC
0
EOF
