0
SECTION
2
HEADER
9
$INSUNITS
70
4
9
$ACADVER
1
AC1014
9
$HANDSEED
5
FFFF
0
ENDSEC
0
SECTION
2
TABLES
0
TABLE
2
VPORT
5
8
100
AcDbSymbolTable
0
ENDTAB
0
TABLE
2
LTYPE
5
5
100
AcDbSymbolTable
0
LTYPE
5
14
100
AcDbSymbolTableRecord
100
AcDbLinetypeTableRecord
2
BYBLOCK
70
0
0
LTYPE
5
15
100
AcDbSymbolTableRecord
100
AcDbLinetypeTableRecord
2
BYLAYER
70
0
0
ENDTAB
0
TABLE
2
LAYER
5
2
100
AcDbSymbolTable
70
2
0
LAYER
5
50
100
AcDbSymbolTableRecord
100
AcDbLayerTableRecord
2
0
70
0
6
CONTINUOUS
0
ENDTAB
0
TABLE
2
STYLE
5
3
100
AcDbSymbolTable
70
1
0
STYLE
5
11
100
AcDbSymbolTableRecord
100
AcDbTextStyleTableRecord
2
STANDARD
70
0
0
ENDTAB
0
TABLE
2
VIEW
5
6
100
AcDbSymbolTable
70
0
0
ENDTAB
0
TABLE
2
UCS
5
7
100
AcDbSymbolTable
70
0
0
ENDTAB
0
TABLE
2
APPID
5
9
100
AcDbSymbolTable
70
2
0
APPID
5
12
100
AcDbSymbolTableRecord
100
AcDbRegAppTableRecord
2
ACAD
70
0
0
ENDTAB
0
TABLE
2
DIMSTYLE
5
A
100
AcDbSymbolTable
70
1
0
ENDTAB
0
TABLE
2
BLOCK_RECORD
5
1
100
AcDbSymbolTable
70
1
0
BLOCK_RECORD
5
1F
100
AcDbSymbolTableRecord
100
AcDbBlockTableRecord
2
*MODEL_SPACE
0
BLOCK_RECORD
5
1B
100
AcDbSymbolTableRecord
100
AcDbBlockTableRecord
2
*PAPER_SPACE
0
ENDTAB
0
ENDSEC
0
SECTION
2
BLOCKS
0
BLOCK
5
20
100
AcDbEntity
100
AcDbBlockBegin
2
*MODEL_SPACE
0
ENDBLK
5
21
100
AcDbEntity
100
AcDbBlockEnd
0
BLOCK
5
1C
100
AcDbEntity
100
AcDbBlockBegin
2
*PAPER_SPACE
0
ENDBLK
5
1D
100
AcDbEntity
100
AcDbBlockEnd
0
ENDSEC
0
SECTION
2
ENTITIES
0
LWPOLYLINE
5
100
100
AcDbEntity
8
0
100
AcDbPolyline
90
6
70
1
43
0.0
10
153.5
20
25.89923878895398
10
153.5
20
58
42
0.41421356237309503
10
149.5
20
61.999999999999993
10
76.329147239527444
20
62
42
0.81204401860657993
10
74.722153553770397
20
54.336999686877334
10
147.89300631424294
20
22.236238475831289
42
0.54119164239458961
0
LWPOLYLINE
5
101
100
AcDbEntity
8
0
100
AcDbPolyline
90
6
70
1
43
0.0
10
396.60699368575706
20
48.349010672071621
10
410.25608629303468
20
54.336999686877299
42
0.81204401860657771
10
408.64909260727762
20
61.999999999999993
10
381.35090739272238
20
61.999999999999993
42
0.81204401860657849
10
379.74391370696532
20
54.336999686877292
10
393.39300631424294
20
48.349010672071628
42
0.20970815869668227
0
LWPOLYLINE
5
102
100
AcDbEntity
8
0
100
AcDbPolyline
90
6
70
1
43
0.0
10
229.7221535537704
20
54.336999686877306
10
302.89300631424294
20
22.23623847583125
42
0.54119164239458883
10
308.5
20
25.899238788953948
10
308.5
20
58
42
0.41421356237309503
10
304.5
20
61.999999999999993
10
231.32914723952746
20
61.999999999999993
42
0.81204401860657771
0
LWPOLYLINE
5
103
100
AcDbEntity
8
0
100
AcDbPolyline
90
6
70
1
43
0.0
10
642.10699368575706
20
22.236238475831279
10
715.27784644622955
20
54.336999686877277
42
0.81204401860657904
10
713.67085276047248
20
61.999999999999993
10
640.5
20
61.999999999999993
42
0.41421356237309503
10
636.5
20
58
10
636.5
20
25.899238788954001
42
0.5411916423945885
0
LWPOLYLINE
5
104
100
AcDbEntity
8
0
100
AcDbPolyline
90
6
70
1
43
0.0
10
481.50000000000006
20
57.999999999999986
10
481.50000000000006
20
25.899238788953959
42
0.54119164239458895
10
487.10699368575712
20
22.236238475831264
10
560.27784644622966
20
54.336999686877299
42
0.81204401860657804
10
558.6708527604726
20
61.999999999999993
10
485.5
20
61.999999999999993
42
0.4142135623730957
0
LWPOLYLINE
5
105
100
AcDbEntity
8
0
100
AcDbPolyline
90
6
70
1
43
0.0
10
171.5
20
54.100761211046034
10
171.5
20
22.000000000000007
42
0.41421356237309503
10
175.49999999999997
20
18
10
248.67085276047251
20
18.000000000000004
42
0.81204401860657771
10
250.27784644622957
20
25.663000313122694
10
177.10699368575703
20
57.763761524168729
42
0.54119164239458961
0
LWPOLYLINE
5
106
100
AcDbEntity
8
0
100
AcDbPolyline
90
6
70
1
43
0.0
10
696.32914723952752
20
18
10
768
20
18
42
0.41421356237309503
10
772
20
22
10
772
20
53.442696694916947
42
0.54119164239458872
10
766.39300631424294
20
57.105697008039662
10
694.72215355377045
20
25.663000313122694
42
0.81204401860657771
0
LWPOLYLINE
5
107
100
AcDbEntity
8
0
100
AcDbPolyline
90
6
70
1
43
0.0
10
369.22667452832889
20
43.66300031312268
10
332.10699368575706
20
59.947763521476801
42
0.54119164239458961
10
326.50000000000006
20
56.284763208354107
10
326.5
20
23.715236791645907
42
0.54119164239458939
10
332.10699368575706
20
20.052236478523213
10
369.22667452832889
20
36.33699968687732
42
0.65329132123467093
0
LWPOLYLINE
5
108
100
AcDbEntity
8
0
100
AcDbPolyline
90
6
70
1
43
0.0
10
393.39300631424294
20
31.650989327928368
10
379.74391370696532
20
25.663000313122694
42
0.81204401860657771
10
381.35090739272238
20
18
10
408.64909260727762
20
18.000000000000004
42
0.81204401860657871
10
410.25608629303468
20
25.663000313122708
10
396.60699368575706
20
31.650989327928365
42
0.20970815869668225
0
LWPOLYLINE
5
109
100
AcDbEntity
8
0
100
AcDbPolyline
90
6
70
1
43
0.0
10
612.89300631424294
20
57.763761524168736
10
539.72215355377034
20
25.663000313122694
42
0.81204401860657771
10
541.3291472395274
20
18
10
614.5
20
18.000000000000004
42
0.41421356237309503
10
618.5
20
22
10
618.5
20
54.10076121104602
42
0.54119164239458872
0
LWPOLYLINE
5
110
100
AcDbEntity
8
0
100
AcDbPolyline
90
6
70
1
43
0.0
10
420.77332547167111
20
36.33699968687732
10
457.89300631424294
20
20.052236478523199
42
0.5411916423945895
10
463.49999999999994
20
23.715236791645893
10
463.5
20
56.284763208354093
42
0.54119164239458961
10
457.89300631424294
20
59.94776352147678
10
420.77332547167111
20
43.663000313122673
42
0.65329132123467071
0
LWPOLYLINE
5
111
100
AcDbEntity
8
0
100
AcDbPolyline
90
6
70
1
43
0.0
10
95.277846446229603
20
25.663000313122694
10
23.606993685757018
20
57.105697008039712
42
0.54119164239458706
10
17.999999999999968
20
53.442696694917004
10
18.000000000000004
20
21.999999999999993
42
0.41421356237309404
10
21.999999999999993
20
18
10
93.670852760472542
20
18.000000000000004
42
0.81204401860657771
0
LWPOLYLINE
5
112
100
AcDbEntity
8
0
100
AcDbPolyline
90
28
70
1
43
0.0
10
0
20
80
10
790
20
80
10
790
20
0
10
785.04999999999995
20
0
10
785.04999999999995
20
5.9999999999999876
42
0.99999999999999989
10
779.95000000000005
20
5.9999999999999876
10
779.95000000000005
20
0
10
630.05000000000007
20
0
10
630.04999999999995
20
5.9999999999999876
42
0.99999999999999989
10
624.95000000000005
20
5.9999999999999876
10
624.94999999999993
20
0
10
475.05000000000001
20
0
10
475.04999999999995
20
5.9999999999999876
42
0.99999999999999989
10
469.95000000000005
20
5.9999999999999876
10
469.94999999999999
20
0
10
320.05000000000001
20
0
10
320.04999999999995
20
5.9999999999999876
42
0.99999999999999989
10
314.94999999999999
20
5.9999999999999876
10
314.94999999999999
20
0
10
165.05000000000001
20
0
10
165.04999999999998
20
5.9999999999999876
42
0.99999999999999989
10
159.95000000000002
20
5.9999999999999876
10
159.95000000000002
20
0
10
10.050000000000008
20
0
10
10.050000000000008
20
5.9999999999999876
42
0.99999999999999989
10
4.9500000000000099
20
5.9999999999999876
10
4.9500000000000091
20
0
10
0
20
0
0
LWPOLYLINE
5
113
100
AcDbEntity
8
0
100
AcDbPolyline
90
4
70
1
43
0.0
10
4.9500000000000099
20
74.000000000000014
42
-0.99999999999999989
10
10.050000000000008
20
74.000000000000014
10
10.050000000000011
20
64.713445739534336
42
-3.5837042115820914
10
4.9500000000000117
20
64.713445739534336
0
LWPOLYLINE
5
114
100
AcDbEntity
8
0
100
AcDbPolyline
90
4
70
1
43
0.0
10
630.05000000000007
20
64.713445739534336
10
630.05000000000007
20
74.000000000000014
42
0.99999999999999989
10
624.94999999999993
20
74.000000000000014
10
624.94999999999993
20
64.713445739534336
42
3.5837042115820545
0
LWPOLYLINE
5
115
100
AcDbEntity
8
0
100
AcDbPolyline
90
4
70
1
43
0.0
10
320.05000000000001
20
64.713445739534336
10
320.05000000000001
20
74.000000000000014
42
0.99999999999999989
10
314.94999999999999
20
74.000000000000014
10
314.94999999999999
20
64.71344573953435
42
3.5837042115820852
0
LWPOLYLINE
5
116
100
AcDbEntity
8
0
100
AcDbPolyline
90
4
70
1
43
0.0
10
165.05000000000001
20
64.713445739534336
10
165.05000000000001
20
74.000000000000014
42
0.99999999999999989
10
159.95000000000002
20
74.000000000000014
10
159.95000000000002
20
64.71344573953435
42
3.5837042115820852
0
LWPOLYLINE
5
117
100
AcDbEntity
8
0
100
AcDbPolyline
90
4
70
1
43
0.0
10
785.04999999999995
20
64.713445739534336
10
785.04999999999995
20
74.000000000000014
42
0.99999999999999989
10
779.95000000000005
20
74.000000000000014
10
779.95000000000005
20
64.713445739534336
42
3.5837042115821407
0
LWPOLYLINE
5
118
100
AcDbEntity
8
0
100
AcDbPolyline
90
4
70
1
43
0.0
10
475.05000000000001
20
64.713445739534336
10
475.05000000000001
20
74.000000000000014
42
0.99999999999999989
10
469.94999999999999
20
74.000000000000014
10
469.94999999999999
20
64.713445739534336
42
3.5837042115820545
0
SPLINE
5
119
100
AcDbEntity
8
0
100
AcDbSpline
70
0
71
3
72
8
73
4
74
0
42
0.000000001
43
0.0000000001
44
0.0000000001
40
-1
40
-1
40
-1
40
-1
40
0
40
0
40
0
40
0
10
368.16800688948831
20
10.473014426118485
30
0
10
368.24128518948828
20
10.162475726118437
30
0
10
368.10217728948834
20
9.840652826118518
30
0
10
367.82585688948836
20
9.6811251261184044
30
0
0
LINE
5
120
100
AcDbEntity
8
0
100
AcDbLine
10
367.82585688948836
20
9.6811251261184044
30
0
11
363.96686748948832
21
7.4530434261187919
31
0
0
SPLINE
5
121
100
AcDbEntity
8
0
100
AcDbSpline
70
0
71
3
72
8
73
4
74
0
42
0.000000001
43
0.0000000001
44
0.0000000001
40
-1
40
-1
40
-1
40
-1
40
0
40
0
40
0
40
0
10
363.96686748948832
20
7.4530434261187919
30
0
10
363.69053928948836
20
7.2935076261186103
30
0
10
363.3423274894883
20
7.3340094261185094
30
0
10
363.11002068948829
20
7.5527271261185778
30
0
0
SPLINE
5
122
100
AcDbEntity
8
0
100
AcDbSpline
70
0
71
3
72
8
73
4
74
0
42
0.000000001
43
0.0000000001
44
0.0000000001
40
-1
40
-1
40
-1
40
-1
40
0
40
0
40
0
40
0
10
363.11002068948829
20
7.5527271261185778
30
0
10
359.76229278948836
20
10.704811826118716
30
0
10
355.72695198948838
20
13.034712326118605
30
0
10
351.32329848948842
20
14.357893526118502
30
0
0
SPLINE
5
123
100
AcDbEntity
8
0
100
AcDbSpline
70
0
71
3
72
8
73
4
74
0
42
0.000000001
43
0.0000000001
44
0.0000000001
40
-1
40
-1
40
-1
40
-1
40
0
40
0
40
0
40
0
10
351.32329848948842
20
14.357893526118502
30
0
10
351.01774428948835
20
14.449714526118488
30
0
10
350.80844598948835
20
14.731035626118496
30
0
10
350.80844598948835
20
15.050099126118583
30
0
0
LINE
5
124
100
AcDbEntity
8
0
100
AcDbLine
10
350.80844598948835
20
15.050099126118583
30
0
11
350.80844598948835
21
19.50610622611865
31
0
0
SPLINE
5
125
100
AcDbEntity
8
0
100
AcDbSpline
70
0
71
3
72
8
73
4
74
0
42
0.000000001
43
0.0000000001
44
0.0000000001
40
-1
40
-1
40
-1
40
-1
40
0
40
0
40
0
40
0
10
350.80844598948835
20
19.50610622611865
30
0
10
350.80844598948835
20
19.825169726118506
30
0
10
351.01774428948835
20
20.106498626118565
30
0
10
351.32329848948842
20
20.198312426118751
30
0
0
SPLINE
5
126
100
AcDbEntity
8
0
100
AcDbSpline
70
0
71
3
72
8
73
4
74
0
42
0.000000001
43
0.0000000001
44
0.0000000001
40
-1
40
-1
40
-1
40
-1
40
0
40
0
40
0
40
0
10
351.32329848948842
20
20.198312426118751
30
0
10
355.72695198948838
20
21.521501726118469
30
0
10
359.76229278948836
20
23.851398326118435
30
0
10
363.11002068948829
20
27.003474026118475
30
0
0
SPLINE
5
127
100
AcDbEntity
8
0
100
AcDbSpline
70
0
71
3
72
8
73
4
74
0
42
0.000000001
43
0.0000000001
44
0.0000000001
40
-1
40
-1
40
-1
40
-1
40
0
40
0
40
0
40
0
10
363.11002068948829
20
27.003474026118475
30
0
10
363.24069348948831
20
27.126513326118548
30
0
10
363.40791678948824
20
27.193085126118568
30
0
10
363.57851898948832
20
27.199435226118531
30
0
0
SPLINE
5
128
100
AcDbEntity
8
0
100
AcDbSpline
70
0
71
3
72
8
73
4
74
0
42
0.000000001
43
0.0000000001
44
0.0000000001
40
-1
40
-1
40
-1
40
-1
40
0
40
0
40
0
40
0
10
363.57851898948832
20
27.199435226118531
30
0
10
363.71121018948833
20
27.204396026118474
30
0
10
363.84597378948831
20
27.172955726118477
30
0
10
363.96686748948832
20
27.103161326118396
30
0
0
LINE
5
129
100
AcDbEntity
8
0
100
AcDbLine
10
363.96686748948832
20
27.103161326118396
30
0
11
367.82585688948836
21
24.875081126118385
31
0
0
SPLINE
5
130
100
AcDbEntity
8
0
100
AcDbSpline
70
0
71
3
72
8
73
4
74
0
42
0.000000001
43
0.0000000001
44
0.0000000001
40
-1
40
-1
40
-1
40
-1
40
0
40
0
40
0
40
0
10
367.82585688948836
20
24.875081126118385
30
0
10
368.10217728948834
20
24.715545326118431
30
0
10
368.24128578948836
20
24.393729626118308
30
0
10
368.16800688948831
20
24.083190926118725
30
0
0
SPLINE
5
131
100
AcDbEntity
8
0
100
AcDbSpline
70
0
71
3
72
8
73
4
74
0
42
0.000000001
43
0.0000000001
44
0.0000000001
40
-1
40
-1
40
-1
40
-1
40
0
40
0
40
0
40
0
10
368.16800688948831
20
24.083190926118725
30
0
10
367.11208908948834
20
19.607925326118462
30
0
10
367.11208908948834
20
14.94828002611853
30
0
10
368.16800688948831
20
10.473014426118485
30
0
0
ENDSEC
0
SECTION
2
OBJECTS
0
DICTIONARY
5
C
100
AcDbDictionary
3
ACAD_GROUP
350
D
3
ACAD_MLINESTYLE
350
17
0
DICTIONARY
5
D
100
AcDbDictionary
0
DICTIONARY
5
1A
330
C
100
AcDbDictionary
0
DICTIONARY
5
17
100
AcDbDictionary
0
ENDSEC
0
EOF
